  0
SECTION
  2
HEADER
  9
$ACADVER
  1
AC1006
  9
$AXISMODE
 70
     0
  9
$AXISUNIT
 10
0.0625
 20
0.0625
  9
$CECOLOR
 62
0
  9
$CELTYPE
  6
CONTINUOUS
  9
$CLAYER
  8
LAYER1
  9
$EXTMIN
 10
0
 20
0
  9
$EXTMAX
 10
28.8924
 20
10.8728
  9
$LIMMIN
 10
0
 20
0
  9
$LIMMAX
 10
28.8924
 20
10.8728
  9
$GRIDMODE
 70
     0
  9
$GRIDUNIT
 10
0.125
 20
0.125
  9
$MIRRTEXT
 70
     1
  9
$SNAPMODE
 70
     1
  9
$SNAPUNIT
 10
0.125
 20
0
  9
$SNAPSTYLE
 70
     0
  9
$SPLINESEGS
 70
     8
  9
$SPLINETYPE
 70
     6
  0
ENDSEC
  0
SECTION
  2
TABLES
  0TABLE  2VPORT 70     2  0VPORT  2*ACTIVE 70     0 100.0 200.0 111.0 211.0 1213.01087 224.5 130.0 230.0 141.0 241.0 150.0 250.0 160.0 260.0 361.0 170.0 270.0 370.0 409.0 412.891304 4250.0 430.0 440.0 500.0 510.0 71     0 72   100 73     1 74     1 75     0 76     0 77     0 78     0  0ENDTAB
  0
TABLE
  2
LTYPE
 70
     1
  0
LTYPE
  2
CONTINUOUS
 70
    64
  3
Descriptive Text
 72
    65
 73
     0
 40
0
  0
ENDTAB
  0
TABLE
  2
LAYER
 70
     1
  0
LAYER
  2
LAYER1
 70
     0
 62
     7
  6
CONTINUOUS
  0
ENDTAB
  0TABLE  2STYLE 70     1  0STYLE  2STANDARD 70     0 400.0 411.0 500.0 71     0 420.2  3txt  4  0ENDTAB
  0
TABLE
  2
VIEW
 70
     0
  0
ENDTAB
  0
TABLE
  2
UCS
 70
     0
  0
ENDTAB
  0
TABLE
  2
DWGMGR
 70
     0
  0
ENDTAB
  0
ENDSEC
  0
SECTION
  2
BLOCKS
  0
BLOCK
  8
LAYER1
  2
Group1
 70
     0
 10
0
 20
0
 30
0
  0
LINE
  8
LAYER1
  6
CONTINUOUS
 62
     7
 10
0.2361
 20
10.5256
 30
0
 11
4.7361
 21
10.5256
 31
0
  0
CIRCLE
  8
LAYER1
 10
0.7361
 20
9.6367
 30
0
 40
0.1944
  0
CIRCLE
  8
LAYER1
 10
0.7361
 20
9.6367
 30
0
 40
0.0833
  0
ENDBLK
  8
LAYER1
  0
BLOCK
  8
LAYER1
  2
Group2
 70
     0
 10
0
 20
0
 30
0
  0
CIRCLE
  8
LAYER1
 10
1.9375
 20
9.6298
 30
0
 40
0.2292
  0
CIRCLE
  8
LAYER1
 10
1.9375
 20
9.6298
 30
0
 40
0.1042
  0
ENDBLK
  8
LAYER1
  0
BLOCK
  8
LAYER1
  2
Group3
 70
     0
 10
0
 20
0
 30
0
  0
CIRCLE
  8
LAYER1
 10
3.1319
 20
9.6298
 30
0
 40
0.2569
  0
CIRCLE
  8
LAYER1
 10
3.1319
 20
9.6298
 30
0
 40
0.1181
  0
ENDBLK
  8
LAYER1
  0
BLOCK
  8
LAYER1
  2
Group4
 70
     0
 10
0
 20
0
 30
0
  0
CIRCLE
  8
LAYER1
 10
4.3819
 20
9.6298
 30
0
 40
0.2847
  0
CIRCLE
  8
LAYER1
 10
4.3819
 20
9.6298
 30
0
 40
0.1319
  0
ENDBLK
  8
LAYER1
  0
BLOCK
  8
LAYER1
  2
Group5
 70
     0
 10
0
 20
0
 30
0
  0
CIRCLE
  8
LAYER1
 10
5.4722
 20
9.6367
 30
0
 40
0.3194
  0
CIRCLE
  8
LAYER1
 10
5.4792
 20
9.6298
 30
0
 40
0.1458
  0
ENDBLK
  8
LAYER1
  0
BLOCK
  8
LAYER1
  2
Group6
 70
     0
 10
0
 20
0
 30
0
  0
CIRCLE
  8
LAYER1
 10
0.8889
 20
7.6645
 30
0
 40
0.375
  0
CIRCLE
  8
LAYER1
 10
0.8819
 20
7.6714
 30
0
 40
0.1597
  0
ENDBLK
  8
LAYER1
  0
BLOCK
  8
LAYER1
  2
Group7
 70
     0
 10
0
 20
0
 30
0
  0
CIRCLE
  8
LAYER1
 10
2.5347
 20
7.6714
 30
0
 40
0.3542
  0
CIRCLE
  8
LAYER1
 10
2.5417
 20
7.6645
 30
0
 40
0.1806
  0
ENDBLK
  8
LAYER1
  0
BLOCK
  8
LAYER1
  2
Group8
 70
     0
 10
0
 20
0
 30
0
  0
CIRCLE
  8
LAYER1
 10
3.8889
 20
7.6784
 30
0
 40
0.4444
  0
CIRCLE
  8
LAYER1
 10
3.8889
 20
7.6784
 30
0
 40
0.1944
  0
ENDBLK
  8
LAYER1
  0
BLOCK
  8
LAYER1
  2
Group9
 70
     0
 10
0
 20
0
 30
0
  0
CIRCLE
  8
LAYER1
 10
5.2292
 20
7.6714
 30
0
 40
0.4097
  0
CIRCLE
  8
LAYER1
 10
5.2361
 20
7.6784
 30
0
 40
0.2083
  0
ENDBLK
  8
LAYER1
  0
BLOCK
  8
LAYER1
  2
Group10
 70
     0
 10
0
 20
0
 30
0
  0
CIRCLE
  8
LAYER1
 10
1.3681
 20
5.1714
 30
0
 40
0.5069
  0
CIRCLE
  8
LAYER1
 10
1.3681
 20
5.1714
 30
0
 40
0.2292
  0
ENDBLK
  8
LAYER1
  0
BLOCK
  8
LAYER1
  2
Group11
 70
     0
 10
0
 20
0
 30
0
  0
CIRCLE
  8
LAYER1
 10
11.5764
 20
9.227
 30
0
 40
0.6597
  0
CIRCLE
  8
LAYER1
 10
11.5694
 20
9.2201
 30
0
 40
0.3333
  0
ENDBLK
  8
LAYER1
  0
BLOCK
  8
LAYER1
  2
Group12
 70
     0
 10
0
 20
0
 30
0
  0
CIRCLE
  8
LAYER1
 10
9.4653
 20
9.2131
 30
0
 40
0.7431
  0
CIRCLE
  8
LAYER1
 10
9.4583
 20
9.2201
 30
0
 40
0.3194
  0
ENDBLK
  8
LAYER1
  0
BLOCK
  8
LAYER1
  2
Group13
 70
     0
 10
0
 20
0
 30
0
  0
CIRCLE
  8
LAYER1
 10
5.0278
 20
2.4839
 30
0
 40
0.5833
  0
CIRCLE
  8
LAYER1
 10
5.0278
 20
2.4839
 30
0
 40
0.3056
  0
ENDBLK
  8
LAYER1
  0
BLOCK
  8
LAYER1
  2
Group14
 70
     0
 10
0
 20
0
 30
0
  0
CIRCLE
  8
LAYER1
 10
3.0833
 20
2.4839
 30
0
 40
0.6944
  0
CIRCLE
  8
LAYER1
 10
3.0764
 20
2.4909
 30
0
 40
0.2847
  0
ENDBLK
  8
LAYER1
  0
BLOCK
  8
LAYER1
  2
Group15
 70
     0
 10
0
 20
0
 30
0
  0
CIRCLE
  8
LAYER1
 10
4.9097
 20
5.1298
 30
0
 40
0.6319
  0
CIRCLE
  8
LAYER1
 10
4.9097
 20
5.1298
 30
0
 40
0.2569
  0
ENDBLK
  8
LAYER1
  0
BLOCK
  8
LAYER1
  2
Group16
 70
     0
 10
0
 20
0
 30
0
  0
CIRCLE
  8
LAYER1
 10
2.9653
 20
5.1298
 30
0
 40
0.4653
  0
CIRCLE
  8
LAYER1
 10
2.9653
 20
5.1298
 30
0
 40
0.2431
  0
ENDBLK
  8
LAYER1
  0
BLOCK
  8
LAYER1
  2
Group17
 70
     0
 10
0
 20
0
 30
0
  0
CIRCLE
  8
LAYER1
 10
26.1875
 20
8.0187
 30
0
 40
1.2569
  0
CIRCLE
  8
LAYER1
 10
26.1806
 20
8.0117
 30
0
 40
0.6944
  0
ENDBLK
  8
LAYER1
  0
BLOCK
  8
LAYER1
  2
Group18
 70
     0
 10
0
 20
0
 30
0
  0
CIRCLE
  8
LAYER1
 10
11.6736
 20
2.2826
 30
0
 40
1.2569
  0
CIRCLE
  8
LAYER1
 10
11.6736
 20
2.2826
 30
0
 40
0.5347
  0
ENDBLK
  8
LAYER1
  0
BLOCK
  8
LAYER1
  2
Group19
 70
     0
 10
0
 20
0
 30
0
  0
CIRCLE
  8
LAYER1
 10
12.9653
 20
5.9492
 30
0
 40
1.0069
  0
CIRCLE
  8
LAYER1
 10
12.9653
 20
5.9631
 30
0
 40
0.5347
  0
ENDBLK
  8
LAYER1
  0
BLOCK
  8
LAYER1
  2
Group20
 70
     0
 10
0
 20
0
 30
0
  0
CIRCLE
  8
LAYER1
 10
10.1458
 20
5.9909
 30
0
 40
0.4097
  0
CIRCLE
  8
LAYER1
 10
10.1597
 20
5.9909
 30
0
 40
1.0069
  0
ENDBLK
  8
LAYER1
  0
BLOCK
  8
LAYER1
  2
Group21
 70
     0
 10
0
 20
0
 30
0
  0
CIRCLE
  8
LAYER1
 10
13.6042
 20
9.1992
 30
0
 40
0.4097
  0
CIRCLE
  8
LAYER1
 10
13.6181
 20
9.1853
 30
0
 40
0.7431
  0
ENDBLK
  8
LAYER1
  0
BLOCK
  8
LAYER1
  2
Group22
 70
     0
 10
0
 20
0
 30
0
  0
CIRCLE
  8
LAYER1
 10
26.2014
 20
3.5881
 30
0
 40
1.5069
  0
CIRCLE
  8
LAYER1
 10
26.1944
 20
3.5812
 30
0
 40
0.6944
  0
ENDBLK
  8
LAYER1
  0
BLOCK
  8
LAYER1
  2
Group23
 70
     0
 10
0
 20
0
 30
0
  0
CIRCLE
  8
LAYER1
 10
17.4514
 20
7.8242
 30
0
 40
1.7569
  0
CIRCLE
  8
LAYER1
 10
17.4444
 20
7.8312
 30
0
 40
0.8194
  0
ENDBLK
  8
LAYER1
  0
BLOCK
  8
LAYER1
  2
Group24
 70
     0
 10
0
 20
0
 30
0
  0
CIRCLE
  8
LAYER1
 10
17.4653
 20
2.8103
 30
0
 40
1.8819
  0
CIRCLE
  8
LAYER1
 10
17.4653
 20
2.8103
 30
0
 40
0.8819
  0
ENDBLK
  8
LAYER1
  0
BLOCK
  8
LAYER1
  2
Group25
 70
     0
 10
0
 20
0
 30
0
  0
CIRCLE
  8
LAYER1
 10
1.3403
 20
2.4909
 30
0
 40
0.5347
  0
CIRCLE
  8
LAYER1
 10
1.3403
 20
2.4909
 30
0
 40
0.2708
  0
ENDBLK
  8
LAYER1
  0
BLOCK
  8
LAYER1
  2
Group26
 70
     0
 10
0
 20
0
 30
0
  0
TEXT
  8
LAYER1
 62
     7
 10
13.2943
 20
0.2512
 30
0
 40
0.0833
  1
©1992
 50
0
999
Geneva
  0
TEXT
  8
LAYER1
 62
     7
 10
12.5859
 20
0.0845
 30
0
 40
0.0833
  1
Advanced System Design, Inc.
 50
0
999
Geneva
  0
TEXT
  8
LAYER1
 62
     7
 10
8.5165
 20
0.0984
 30
0
 40
0.0833
  1
Scale 1:1  Printed at 70%
 50
0
999
Geneva
  0
ENDBLK
  8
LAYER1
  0
BLOCK
  8
LAYER1
  2
Group27
 70
     0
 10
0
 20
0
 30
0
  0
TEXT
  8
LAYER1
 62
     7
 10
19.4054
 20
0.2512
 30
0
 40
0.0833
  1
©1992
 50
0
999
Geneva
  0
TEXT
  8
LAYER1
 62
     7
 10
18.6971
 20
0.0845
 30
0
 40
0.0833
  1
Advanced System Design, Inc.
 50
0
999
Geneva
  0
TEXT
  8
LAYER1
 62
     7
 10
14.5582
 20
0.0984
 30
0
 40
0.0833
  1
Scale 1:1  Printed at 70%
 50
0
999
Geneva
  0
ENDBLK
  8
LAYER1
  0
BLOCK
  8
LAYER1
  2
Group28
 70
     0
 10
0
 20
0
 30
0
  0
TEXT
  8
LAYER1
 62
     7
 10
27.7804
 20
0.2512
 30
0
 40
0.0833
  1
©1992
 50
0
999
Geneva
  0
TEXT
  8
LAYER1
 62
     7
 10
27.0721
 20
0.0845
 30
0
 40
0.0833
  1
Advanced System Design, Inc.
 50
0
999
Geneva
  0
TEXT
  8
LAYER1
 62
     7
 10
23.0026
 20
0.0984
 30
0
 40
0.0833
  1
Scale 1:1  Printed at 70%
 50
0
999
Geneva
  0
ENDBLK
  8
LAYER1
  0
BLOCK
  8
LAYER1
  2
Group29
 70
     0
 10
0
 20
0
 30
0
  0
TEXT
  8
LAYER1
 62
     7
 10
2.5026
 20
0.029
 30
0
 40
0.1389
  1
- 4-281 -
 50
0
999
Geneva
  0
TEXT
  8
LAYER1
 62
     7
 10
10.7248
 20
0.029
 30
0
 40
0.1389
  1
- 4-282 -
 50
0
999
Geneva
  0
TEXT
  8
LAYER1
 62
     7
 10
16.9748
 20
0.029
 30
0
 40
0.1389
  1
- 4-283 -
 50
0
999
Geneva
  0
TEXT
  8
LAYER1
 62
     7
 10
25.2109
 20
0.029
 30
0
 40
0.1389
  1
- 4-284 -
 50
0
999
Geneva
  0
LINE
  8
LAYER1
  6
CONTINUOUS
 62
     7
 10
0.2222
 20
10.8173
 30
0
 11
4.7222
 21
10.8173
 31
0
  0
TEXT
  8
LAYER1
 62
     7
 10
0.2387
 20
10.5567
 30
0
 40
0.125
  1
Washers - Plain
 50
0
999
Geneva
  0
TEXT
  8
LAYER1
 62
     7
 10
0.1554
 20
9.1817
 30
0
 40
0.0833
  1
W.156x.375x.049
 50
0
999
Geneva
  0
TEXT
  8
LAYER1
 62
     7
 10
1.3498
 20
8.9734
 30
0
 40
0.0833
  1
W.188x.438x.049
 50
0
999
Geneva
  0
TEXT
  8
LAYER1
 62
     7
 10
2.5443
 20
9.1817
 30
0
 40
0.0833
  1
W.219x.500x.049
 50
0
999
Geneva
  0
TEXT
  8
LAYER1
 62
     7
 10
3.7943
 20
8.9734
 30
0
 40
0.0833
  1
W.250x.562x.049
 50
0
999
Geneva
  0
TEXT
  8
LAYER1
 62
     7
 10
4.9887
 20
9.1817
 30
0
 40
0.0833
  1
W.281x.625x.065
 50
0
999
Geneva
  0
TEXT
  8
LAYER1
 62
     7
 10
0.3637
 20
6.9178
 30
0
 40
0.0833
  1
W.312x.734x.065
 50
0
999
Geneva
  0
TEXT
  8
LAYER1
 62
     7
 10
1.9471
 20
6.9178
 30
0
 40
0.0833
  1
W.344x.688x.065
 50
0
999
Geneva
  0
TEXT
  8
LAYER1
 62
     7
 10
3.2943
 20
6.9178
 30
0
 40
0.0833
  1
W.375x.875x.083
 50
0
999
Geneva
  0
TEXT
  8
LAYER1
 62
     7
 10
4.6415
 20
6.9178
 30
0
 40
0.0833
  1
W.406x.812x.065
 50
0
999
Geneva
  0
TEXT
  8
LAYER1
 62
     7
 10
0.7109
 20
4.3067
 30
0
 40
0.0833
  1
W.438x1.00x.083
 50
0
999
Geneva
  0
INSERT
  8
LAYER1
  2
Group1
 10
0
 20
0
 30
0
  0
POLYLINE
  8
LAYER1
  6
CONTINUOUS
 62
     7
 66
     1
 70
     0
 40
0.001
 41
0.001
  0
VERTEX
  8
LAYER1
 10
0.5417
 20
10.1784
 30
0
 70
     0
  0
VERTEX
  8
LAYER1
 10
0.9306
 20
10.1784
 30
0
 70
     0
  0
VERTEX
  8
LAYER1
 10
0.9306
 20
10.1089
 30
0
 70
     0
  0
VERTEX
  8
LAYER1
 10
0.5417
 20
10.1089
 30
0
 70
     0
  0
VERTEX
  8
LAYER1
 10
0.5417
 20
10.1784
 30
0
 70
     0
  0
SEQEND
  0
INSERT
  8
LAYER1
  2
Group2
 10
0
 20
0
 30
0
  0
POLYLINE
  8
LAYER1
  6
CONTINUOUS
 62
     7
 66
     1
 70
     0
 40
0.001
 41
0.001
  0
VERTEX
  8
LAYER1
 10
1.7083
 20
10.1784
 30
0
 70
     0
  0
VERTEX
  8
LAYER1
 10
2.1667
 20
10.1784
 30
0
 70
     0
  0
VERTEX
  8
LAYER1
 10
2.1667
 20
10.1089
 30
0
 70
     0
  0
VERTEX
  8
LAYER1
 10
1.7083
 20
10.1089
 30
0
 70
     0
  0
VERTEX
  8
LAYER1
 10
1.7083
 20
10.1784
 30
0
 70
     0
  0
SEQEND
  0
INSERT
  8
LAYER1
  2
Group3
 10
0
 20
0
 30
0
  0
POLYLINE
  8
LAYER1
  6
CONTINUOUS
 62
     7
 66
     1
 70
     0
 40
0.001
 41
0.001
  0
VERTEX
  8
LAYER1
 10
2.875
 20
10.1784
 30
0
 70
     0
  0
VERTEX
  8
LAYER1
 10
3.3889
 20
10.1784
 30
0
 70
     0
  0
VERTEX
  8
LAYER1
 10
3.3889
 20
10.1089
 30
0
 70
     0
  0
VERTEX
  8
LAYER1
 10
2.875
 20
10.1089
 30
0
 70
     0
  0
VERTEX
  8
LAYER1
 10
2.875
 20
10.1784
 30
0
 70
     0
  0
SEQEND
  0
INSERT
  8
LAYER1
  2
Group4
 10
0
 20
0
 30
0
  0
POLYLINE
  8
LAYER1
  6
CONTINUOUS
 62
     7
 66
     1
 70
     0
 40
0.001
 41
0.001
  0
VERTEX
  8
LAYER1
 10
4.0972
 20
10.1784
 30
0
 70
     0
  0
VERTEX
  8
LAYER1
 10
4.6667
 20
10.1784
 30
0
 70
     0
  0
VERTEX
  8
LAYER1
 10
4.6667
 20
10.1089
 30
0
 70
     0
  0
VERTEX
  8
LAYER1
 10
4.0972
 20
10.1089
 30
0
 70
     0
  0
VERTEX
  8
LAYER1
 10
4.0972
 20
10.1784
 30
0
 70
     0
  0
SEQEND
  0
INSERT
  8
LAYER1
  2
Group5
 10
0
 20
0
 30
0
  0
POLYLINE
  8
LAYER1
  6
CONTINUOUS
 62
     7
 66
     1
 70
     0
 40
0.001
 41
0.001
  0
VERTEX
  8
LAYER1
 10
5.1528
 20
10.1923
 30
0
 70
     0
  0
VERTEX
  8
LAYER1
 10
5.7917
 20
10.1923
 30
0
 70
     0
  0
VERTEX
  8
LAYER1
 10
5.7917
 20
10.1089
 30
0
 70
     0
  0
VERTEX
  8
LAYER1
 10
5.1528
 20
10.1089
 30
0
 70
     0
  0
VERTEX
  8
LAYER1
 10
5.1528
 20
10.1923
 30
0
 70
     0
  0
SEQEND
  0
INSERT
  8
LAYER1
  2
Group6
 10
0
 20
0
 30
0
  0
POLYLINE
  8
LAYER1
  6
CONTINUOUS
 62
     7
 66
     1
 70
     0
 40
0.001
 41
0.001
  0
VERTEX
  8
LAYER1
 10
0.5139
 20
8.2339
 30
0
 70
     0
  0
VERTEX
  8
LAYER1
 10
1.2639
 20
8.2339
 30
0
 70
     0
  0
VERTEX
  8
LAYER1
 10
1.2639
 20
8.1506
 30
0
 70
     0
  0
VERTEX
  8
LAYER1
 10
0.5139
 20
8.1506
 30
0
 70
     0
  0
VERTEX
  8
LAYER1
 10
0.5139
 20
8.2339
 30
0
 70
     0
  0
SEQEND
  0
INSERT
  8
LAYER1
  2
Group7
 10
0
 20
0
 30
0
  0
POLYLINE
  8
LAYER1
  6
CONTINUOUS
 62
     7
 66
     1
 70
     0
 40
0.001
 41
0.001
  0
VERTEX
  8
LAYER1
 10
2.1806
 20
8.2339
 30
0
 70
     0
  0
VERTEX
  8
LAYER1
 10
2.8889
 20
8.2339
 30
0
 70
     0
  0
VERTEX
  8
LAYER1
 10
2.8889
 20
8.1506
 30
0
 70
     0
  0
VERTEX
  8
LAYER1
 10
2.1806
 20
8.1506
 30
0
 70
     0
  0
VERTEX
  8
LAYER1
 10
2.1806
 20
8.2339
 30
0
 70
     0
  0
SEQEND
  0
INSERT
  8
LAYER1
  2
Group8
 10
0
 20
0
 30
0
  0
POLYLINE
  8
LAYER1
  6
CONTINUOUS
 62
     7
 66
     1
 70
     0
 40
0.001
 41
0.001
  0
VERTEX
  8
LAYER1
 10
3.4444
 20
8.2617
 30
0
 70
     0
  0
VERTEX
  8
LAYER1
 10
4.3333
 20
8.2617
 30
0
 70
     0
  0
VERTEX
  8
LAYER1
 10
4.3333
 20
8.1645
 30
0
 70
     0
  0
VERTEX
  8
LAYER1
 10
3.4444
 20
8.1645
 30
0
 70
     0
  0
VERTEX
  8
LAYER1
 10
3.4444
 20
8.2617
 30
0
 70
     0
  0
SEQEND
  0
INSERT
  8
LAYER1
  2
Group9
 10
0
 20
0
 30
0
  0
POLYLINE
  8
LAYER1
  6
CONTINUOUS
 62
     7
 66
     1
 70
     0
 40
0.001
 41
0.001
  0
VERTEX
  8
LAYER1
 10
4.8194
 20
8.2478
 30
0
 70
     0
  0
VERTEX
  8
LAYER1
 10
5.6389
 20
8.2478
 30
0
 70
     0
  0
VERTEX
  8
LAYER1
 10
5.6389
 20
8.1645
 30
0
 70
     0
  0
VERTEX
  8
LAYER1
 10
4.8194
 20
8.1645
 30
0
 70
     0
  0
VERTEX
  8
LAYER1
 10
4.8194
 20
8.2478
 30
0
 70
     0
  0
SEQEND
  0
INSERT
  8
LAYER1
  2
Group10
 10
0
 20
0
 30
0
  0
POLYLINE
  8
LAYER1
  6
CONTINUOUS
 62
     7
 66
     1
 70
     0
 40
0.001
 41
0.001
  0
VERTEX
  8
LAYER1
 10
0.8611
 20
5.9978
 30
0
 70
     0
  0
VERTEX
  8
LAYER1
 10
1.875
 20
5.9978
 30
0
 70
     0
  0
VERTEX
  8
LAYER1
 10
1.875
 20
5.9006
 30
0
 70
     0
  0
VERTEX
  8
LAYER1
 10
0.8611
 20
5.9006
 30
0
 70
     0
  0
VERTEX
  8
LAYER1
 10
0.8611
 20
5.9978
 30
0
 70
     0
  0
SEQEND
  0
POLYLINE
  8
LAYER1
  6
CONTINUOUS
 62
     7
 66
     1
 70
     0
 40
0.001
 41
0.001
  0
VERTEX
  8
LAYER1
 10
10.9167
 20
10.1089
 30
0
 70
     0
  0
VERTEX
  8
LAYER1
 10
12.2361
 20
10.1089
 30
0
 70
     0
  0
VERTEX
  8
LAYER1
 10
12.2361
 20
9.9978
 30
0
 70
     0
  0
VERTEX
  8
LAYER1
 10
10.9167
 20
9.9978
 30
0
 70
     0
  0
VERTEX
  8
LAYER1
 10
10.9167
 20
10.1089
 30
0
 70
     0
  0
SEQEND
  0
INSERT
  8
LAYER1
  2
Group11
 10
0
 20
0
 30
0
  0
POLYLINE
  8
LAYER1
  6
CONTINUOUS
 62
     7
 66
     1
 70
     0
 40
0.001
 41
0.001
  0
VERTEX
  8
LAYER1
 10
8.7222
 20
10.1228
 30
0
 70
     0
  0
VERTEX
  8
LAYER1
 10
10.2083
 20
10.1228
 30
0
 70
     0
  0
VERTEX
  8
LAYER1
 10
10.2083
 20
9.9978
 30
0
 70
     0
  0
VERTEX
  8
LAYER1
 10
8.7222
 20
9.9978
 30
0
 70
     0
  0
VERTEX
  8
LAYER1
 10
8.7222
 20
10.1228
 30
0
 70
     0
  0
SEQEND
  0
INSERT
  8
LAYER1
  2
Group12
 10
0
 20
0
 30
0
  0
POLYLINE
  8
LAYER1
  6
CONTINUOUS
 62
     7
 66
     1
 70
     0
 40
0.001
 41
0.001
  0
VERTEX
  8
LAYER1
 10
4.4444
 20
3.4839
 30
0
 70
     0
  0
VERTEX
  8
LAYER1
 10
5.6111
 20
3.4839
 30
0
 70
     0
  0
VERTEX
  8
LAYER1
 10
5.6111
 20
3.3728
 30
0
 70
     0
  0
VERTEX
  8
LAYER1
 10
4.4444
 20
3.3728
 30
0
 70
     0
  0
VERTEX
  8
LAYER1
 10
4.4444
 20
3.4839
 30
0
 70
     0
  0
SEQEND
  0
INSERT
  8
LAYER1
  2
Group13
 10
0
 20
0
 30
0
  0
POLYLINE
  8
LAYER1
  6
CONTINUOUS
 62
     7
 66
     1
 70
     0
 40
0.001
 41
0.001
  0
VERTEX
  8
LAYER1
 10
2.3889
 20
3.4978
 30
0
 70
     0
  0
VERTEX
  8
LAYER1
 10
3.7778
 20
3.4978
 30
0
 70
     0
  0
VERTEX
  8
LAYER1
 10
3.7778
 20
3.3728
 30
0
 70
     0
  0
VERTEX
  8
LAYER1
 10
2.3889
 20
3.3728
 30
0
 70
     0
  0
VERTEX
  8
LAYER1
 10
2.3889
 20
3.4978
 30
0
 70
     0
  0
SEQEND
  0
INSERT
  8
LAYER1
  2
Group14
 10
0
 20
0
 30
0
  0
POLYLINE
  8
LAYER1
  6
CONTINUOUS
 62
     7
 66
     1
 70
     0
 40
0.001
 41
0.001
  0
VERTEX
  8
LAYER1
 10
4.2778
 20
6.0534
 30
0
 70
     0
  0
VERTEX
  8
LAYER1
 10
5.5417
 20
6.0534
 30
0
 70
     0
  0
VERTEX
  8
LAYER1
 10
5.5417
 20
5.9006
 30
0
 70
     0
  0
VERTEX
  8
LAYER1
 10
4.2778
 20
5.9006
 30
0
 70
     0
  0
VERTEX
  8
LAYER1
 10
4.2778
 20
6.0534
 30
0
 70
     0
  0
SEQEND
  0
INSERT
  8
LAYER1
  2
Group15
 10
0
 20
0
 30
0
  0
POLYLINE
  8
LAYER1
  6
CONTINUOUS
 62
     7
 66
     1
 70
     0
 40
0.001
 41
0.001
  0
VERTEX
  8
LAYER1
 10
2.5139
 20
5.9839
 30
0
 70
     0
  0
VERTEX
  8
LAYER1
 10
3.4444
 20
5.9839
 30
0
 70
     0
  0
VERTEX
  8
LAYER1
 10
3.4444
 20
5.9006
 30
0
 70
     0
  0
VERTEX
  8
LAYER1
 10
2.5139
 20
5.9006
 30
0
 70
     0
  0
VERTEX
  8
LAYER1
 10
2.5139
 20
5.9839
 30
0
 70
     0
  0
SEQEND
  0
INSERT
  8
LAYER1
  2
Group16
 10
0
 20
0
 30
0
  0
TEXT
  8
LAYER1
 62
     7
 10
2.4054
 20
4.3206
 30
0
 40
0.0833
  1
W.469x.922x.065
 50
0
999
Geneva
  0
TEXT
  8
LAYER1
 62
     7
 10
4.3082
 20
4.3206
 30
0
 40
0.0833
  1
W.500x1.25x.083
 50
0
999
Geneva
  0
TEXT
  8
LAYER1
 62
     7
 10
0.6832
 20
1.529
 30
0
 40
0.0833
  1
W.531x1.062x.095
 50
0
999
Geneva
  0
TEXT
  8
LAYER1
 62
     7
 10
2.4471
 20
1.529
 30
0
 40
0.0833
  1
W.562x1.375x.109
 50
0
999
Geneva
  0
TEXT
  8
LAYER1
 62
     7
 10
4.3915
 20
1.529
 30
0
 40
0.0833
  1
W.594x1.156x.095
 50
0
999
Geneva
  0
TEXT
  8
LAYER1
 62
     7
 10
8.8221
 20
8.3067
 30
0
 40
0.0833
  1
W.625x1.469x.109
 50
0
999
Geneva
  0
TEXT
  8
LAYER1
 62
     7
 10
10.9332
 20
8.3067
 30
0
 40
0.0833
  1
W.656x1.312x.095
 50
0
999
Geneva
  0
TEXT
  8
LAYER1
 62
     7
 10
25.5443
 20
6.2512
 30
0
 40
0.0833
  1
W1.375x2.50x.165
 50
0
999
Geneva
  0
POLYLINE
  8
LAYER1
  6
CONTINUOUS
 62
     7
 66
     1
 70
     0
 40
0.001
 41
0.001
  0
VERTEX
  8
LAYER1
 10
24.9306
 20
9.5256
 30
0
 70
     0
  0
VERTEX
  8
LAYER1
 10
27.4444
 20
9.5256
 30
0
 70
     0
  0
VERTEX
  8
LAYER1
 10
27.4444
 20
9.3451
 30
0
 70
     0
  0
VERTEX
  8
LAYER1
 10
24.9306
 20
9.3451
 30
0
 70
     0
  0
VERTEX
  8
LAYER1
 10
24.9306
 20
9.5256
 30
0
 70
     0
  0
SEQEND
  0
INSERT
  8
LAYER1
  2
Group17
 10
0
 20
0
 30
0
  0
TEXT
  8
LAYER1
 62
     7
 10
11.0304
 20
0.8901
 30
0
 40
0.0833
  1
W1.062x2.50x.165
 50
0
999
Geneva
  0
POLYLINE
  8
LAYER1
  6
CONTINUOUS
 62
     7
 66
     1
 70
     0
 40
0.001
 41
0.001
  0
VERTEX
  8
LAYER1
 10
10.4167
 20
3.7895
 30
0
 70
     0
  0
VERTEX
  8
LAYER1
 10
12.9306
 20
3.7895
 30
0
 70
     0
  0
VERTEX
  8
LAYER1
 10
12.9306
 20
3.6089
 30
0
 70
     0
  0
VERTEX
  8
LAYER1
 10
10.4167
 20
3.6089
 30
0
 70
     0
  0
VERTEX
  8
LAYER1
 10
10.4167
 20
3.7895
 30
0
 70
     0
  0
SEQEND
  0
INSERT
  8
LAYER1
  2
Group18
 10
0
 20
0
 30
0
  0
TEXT
  8
LAYER1
 62
     7
 10
12.3221
 20
4.7651
 30
0
 40
0.0833
  1
W1.062x2.00x.134
 50
0
999
Geneva
  0
POLYLINE
  8
LAYER1
  6
CONTINUOUS
 62
     7
 66
     1
 70
     0
 40
0.001
 41
0.001
  0
VERTEX
  8
LAYER1
 10
11.9583
 20
7.2339
 30
0
 70
     0
  0
VERTEX
  8
LAYER1
 10
13.9722
 20
7.2339
 30
0
 70
     0
  0
VERTEX
  8
LAYER1
 10
13.9722
 20
7.0812
 30
0
 70
     0
  0
VERTEX
  8
LAYER1
 10
11.9583
 20
7.0812
 30
0
 70
     0
  0
VERTEX
  8
LAYER1
 10
11.9583
 20
7.2339
 30
0
 70
     0
  0
SEQEND
  0
INSERT
  8
LAYER1
  2
Group19
 10
0
 20
0
 30
0
  0
TEXT
  8
LAYER1
 62
     7
 10
9.5582
 20
4.8067
 30
0
 40
0.0833
  1
W.812x2.00x.148
 50
0
999
Geneva
  0
TEXT
  8
LAYER1
 62
     7
 10
13.0165
 20
8.2928
 30
0
 40
0.0833
  1
W.812x1.469x.134
 50
0
999
Geneva
  0
POLYLINE
  8
LAYER1
  6
CONTINUOUS
 62
     7
 66
     1
 70
     0
 40
0.001
 41
0.001
  0
VERTEX
  8
LAYER1
 10
9.1528
 20
7.2895
 30
0
 70
     0
  0
VERTEX
  8
LAYER1
 10
11.1667
 20
7.2895
 30
0
 70
     0
  0
VERTEX
  8
LAYER1
 10
11.1667
 20
7.1228
 30
0
 70
     0
  0
VERTEX
  8
LAYER1
 10
9.1528
 20
7.1228
 30
0
 70
     0
  0
VERTEX
  8
LAYER1
 10
9.1528
 20
7.2895
 30
0
 70
     0
  0
SEQEND
  0
INSERT
  8
LAYER1
  2
Group20
 10
0
 20
0
 30
0
  0
POLYLINE
  8
LAYER1
  6
CONTINUOUS
 62
     7
 66
     1
 70
     0
 40
0.001
 41
0.001
  0
VERTEX
  8
LAYER1
 10
12.875
 20
10.1506
 30
0
 70
     0
  0
VERTEX
  8
LAYER1
 10
14.3611
 20
10.1506
 30
0
 70
     0
  0
VERTEX
  8
LAYER1
 10
14.3611
 20
9.9978
 30
0
 70
     0
  0
VERTEX
  8
LAYER1
 10
12.875
 20
9.9978
 30
0
 70
     0
  0
VERTEX
  8
LAYER1
 10
12.875
 20
10.1506
 30
0
 70
     0
  0
SEQEND
  0
INSERT
  8
LAYER1
  2
Group21
 10
0
 20
0
 30
0
  0
TEXT
  8
LAYER1
 62
     7
 10
25.5443
 20
1.6817
 30
0
 40
0.0833
  1
W.1.375x3.00x.165
 50
0
999
Geneva
  0
POLYLINE
  8
LAYER1
  6
CONTINUOUS
 62
     7
 66
     1
 70
     0
 40
0.001
 41
0.001
  0
VERTEX
  8
LAYER1
 10
24.6944
 20
5.3312
 30
0
 70
     0
  0
VERTEX
  8
LAYER1
 10
27.7083
 20
5.3312
 30
0
 70
     0
  0
VERTEX
  8
LAYER1
 10
27.7083
 20
5.1506
 30
0
 70
     0
  0
VERTEX
  8
LAYER1
 10
24.6944
 20
5.1506
 30
0
 70
     0
  0
VERTEX
  8
LAYER1
 10
24.6944
 20
5.3312
 30
0
 70
     0
  0
SEQEND
  0
INSERT
  8
LAYER1
  2
Group22
 10
0
 20
0
 30
0
  0
TEXT
  8
LAYER1
 62
     7
 10
16.8776
 20
5.8484
 30
0
 40
0.0833
  1
W1.625x3.50x.180
 50
0
999
Geneva
  0
POLYLINE
  8
LAYER1
  6
CONTINUOUS
 62
     7
 66
     1
 70
     0
 40
0.001
 41
0.001
  0
VERTEX
  8
LAYER1
 10
15.6944
 20
9.8728
 30
0
 70
     0
  0
VERTEX
  8
LAYER1
 10
19.2083
 20
9.8728
 30
0
 70
     0
  0
VERTEX
  8
LAYER1
 10
19.2083
 20
9.6784
 30
0
 70
     0
  0
VERTEX
  8
LAYER1
 10
15.6944
 20
9.6784
 30
0
 70
     0
  0
VERTEX
  8
LAYER1
 10
15.6944
 20
9.8728
 30
0
 70
     0
  0
SEQEND
  0
INSERT
  8
LAYER1
  2
Group23
 10
0
 20
0
 30
0
  0
TEXT
  8
LAYER1
 62
     7
 10
16.9054
 20
0.7512
 30
0
 40
0.0833
  1
W1.75x3.75x.180
 50
0
999
Geneva
  0
POLYLINE
  8
LAYER1
  6
CONTINUOUS
 62
     7
 66
     1
 70
     0
 40
0.001
 41
0.001
  0
VERTEX
  8
LAYER1
 10
15.6667
 20
4.9006
 30
0
 70
     0
  0
VERTEX
  8
LAYER1
 10
19.1806
 20
4.9006
 30
0
 70
     0
  0
VERTEX
  8
LAYER1
 10
19.1806
 20
4.7062
 30
0
 70
     0
  0
VERTEX
  8
LAYER1
 10
15.6667
 20
4.7062
 30
0
 70
     0
  0
VERTEX
  8
LAYER1
 10
15.6667
 20
4.9006
 30
0
 70
     0
  0
SEQEND
  0
INSERT
  8
LAYER1
  2
Group24
 10
0
 20
0
 30
0
  0
POLYLINE
  8
LAYER1
  6
CONTINUOUS
 62
     7
 66
     1
 70
     0
 40
0.001
 41
0.001
  0
VERTEX
  8
LAYER1
 10
0.8056
 20
3.4839
 30
0
 70
     0
  0
VERTEX
  8
LAYER1
 10
1.875
 20
3.4839
 30
0
 70
     0
  0
VERTEX
  8
LAYER1
 10
1.875
 20
3.3728
 30
0
 70
     0
  0
VERTEX
  8
LAYER1
 10
0.8056
 20
3.3728
 30
0
 70
     0
  0
VERTEX
  8
LAYER1
 10
0.8056
 20
3.4839
 30
0
 70
     0
  0
SEQEND
  0
INSERT
  8
LAYER1
  2
Group25
 10
0
 20
0
 30
0
  0
LINE
  8
LAYER1
  6
CONTINUOUS
 62
     7
 10
8.625
 20
10.8173
 30
0
 11
13.125
 21
10.8173
 31
0
  0
TEXT
  8
LAYER1
 62
     7
 10
8.6554
 20
10.5567
 30
0
 40
0.125
  1
Washers - Plain
 50
0
999
Geneva
  0
TEXT
  8
LAYER1
 62
     7
 10
9.5064
 20
10.5567
 30
0
 40
0.125
  1
 
 50
0
999
Geneva
  0
LINE
  8
LAYER1
  6
CONTINUOUS
 62
     7
 10
8.6528
 20
10.5256
 30
0
 11
13.1528
 21
10.5256
 31
0
  0
LINE
  8
LAYER1
  6
CONTINUOUS
 62
     7
 10
14.6944
 20
10.8173
 30
0
 11
19.1944
 21
10.8173
 31
0
  0
TEXT
  8
LAYER1
 62
     7
 10
14.7109
 20
10.5567
 30
0
 40
0.125
  1
Washers - Plain
 50
0
999
Geneva
  0
TEXT
  8
LAYER1
 62
     7
 10
1.9193
 20
0.5706
 30
0
 40
0.0833
  1
Note: W.InsidexOutsidexThickness
 50
0
999
Geneva
  0
LINE
  8
LAYER1
  6
CONTINUOUS
 62
     7
 10
14.7083
 20
10.5256
 30
0
 11
19.2083
 21
10.5256
 31
0
  0
LINE
  8
LAYER1
  6
CONTINUOUS
 62
     7
 10
23.0972
 20
10.8173
 30
0
 11
27.5972
 21
10.8173
 31
0
  0
TEXT
  8
LAYER1
 62
     7
 10
23.1137
 20
10.5567
 30
0
 40
0.125
  1
Washers - Plain
 50
0
999
Geneva
  0
TEXT
  8
LAYER1
 62
     7
 10
4.9332
 20
0.2512
 30
0
 40
0.0833
  1
©1992
 50
0
999
Geneva
  0
TEXT
  8
LAYER1
 62
     7
 10
4.2248
 20
0.0845
 30
0
 40
0.0833
  1
Advanced System Design, Inc.
 50
0
999
Geneva
  0
TEXT
  8
LAYER1
 62
     7
 10
0.2526
 20
0.0706
 30
0
 40
0.0833
  1
Scale 1:1  Printed at 70%
 50
0
999
Geneva
  0
INSERT
  8
LAYER1
  2
Group26
 10
0
 20
0
 30
0
  0
INSERT
  8
LAYER1
  2
Group27
 10
0
 20
0
 30
0
  0
INSERT
  8
LAYER1
  2
Group28
 10
0
 20
0
 30
0
  0
TEXT
  8
LAYER1
 62
     7
 10
0.4748
 20
8.9873
 30
0
 40
0.0833
  1
57700
 50
0
999
Geneva
  0
TEXT
  8
LAYER1
 62
     7
 10
0.5443
 20
10.2928
 30
0
 40
0.0833
  1
57701
 50
0
999
Geneva
  0
TEXT
  8
LAYER1
 62
     7
 10
1.6693
 20
8.7928
 30
0
 40
0.0833
  1
57702
 50
0
999
Geneva
  0
TEXT
  8
LAYER1
 62
     7
 10
1.7248
 20
10.2928
 30
0
 40
0.0833
  1
57703
 50
0
999
Geneva
  0
TEXT
  8
LAYER1
 62
     7
 10
2.9748
 20
8.9873
 30
0
 40
0.0833
  1
57704
 50
0
999
Geneva
  0
TEXT
  8
LAYER1
 62
     7
 10
2.9332
 20
10.2928
 30
0
 40
0.0833
  1
57705
 50
0
999
Geneva
  0
TEXT
  8
LAYER1
 62
     7
 10
4.1693
 20
8.7928
 30
0
 40
0.0833
  1
57706
 50
0
999
Geneva
  0
TEXT
  8
LAYER1
 62
     7
 10
4.1693
 20
10.2928
 30
0
 40
0.0833
  1
57707
 50
0
999
Geneva
  0
TEXT
  8
LAYER1
 62
     7
 10
5.2665
 20
8.9873
 30
0
 40
0.0833
  1
57708
 50
0
999
Geneva
  0
TEXT
  8
LAYER1
 62
     7
 10
5.2665
 20
10.2928
 30
0
 40
0.0833
  1
57709
 50
0
999
Geneva
  0
TEXT
  8
LAYER1
 62
     7
 10
0.6693
 20
6.6956
 30
0
 40
0.0833
  1
57710
 50
0
999
Geneva
  0
TEXT
  8
LAYER1
 62
     7
 10
0.6693
 20
8.3901
 30
0
 40
0.0833
  1
57711
 50
0
999
Geneva
  0
TEXT
  8
LAYER1
 62
     7
 10
2.3776
 20
6.6956
 30
0
 40
0.0833
  1
57712
 50
0
999
Geneva
  0
TEXT
  8
LAYER1
 62
     7
 10
2.3776
 20
8.3901
 30
0
 40
0.0833
  1
57713
 50
0
999
Geneva
  0
TEXT
  8
LAYER1
 62
     7
 10
3.6693
 20
6.6956
 30
0
 40
0.0833
  1
57714
 50
0
999
Geneva
  0
TEXT
  8
LAYER1
 62
     7
 10
3.6693
 20
8.3901
 30
0
 40
0.0833
  1
57715
 50
0
999
Geneva
  0
TEXT
  8
LAYER1
 62
     7
 10
5.0721
 20
6.6956
 30
0
 40
0.0833
  1
57716
 50
0
999
Geneva
  0
TEXT
  8
LAYER1
 62
     7
 10
4.9748
 20
8.3901
 30
0
 40
0.0833
  1
57717
 50
0
999
Geneva
  0
TEXT
  8
LAYER1
 62
     7
 10
1.0721
 20
4.0845
 30
0
 40
0.0833
  1
57718
 50
0
999
Geneva
  0
TEXT
  8
LAYER1
 62
     7
 10
1.1693
 20
6.1956
 30
0
 40
0.0833
  1
57719
 50
0
999
Geneva
  0
TEXT
  8
LAYER1
 62
     7
 10
2.7665
 20
4.1817
 30
0
 40
0.0833
  1
57720
 50
0
999
Geneva
  0
TEXT
  8
LAYER1
 62
     7
 10
2.7665
 20
6.1956
 30
0
 40
0.0833
  1
57721
 50
0
999
Geneva
  0
TEXT
  8
LAYER1
 62
     7
 10
4.6693
 20
4.1817
 30
0
 40
0.0833
  1
57722
 50
0
999
Geneva
  0
TEXT
  8
LAYER1
 62
     7
 10
4.6693
 20
6.1956
 30
0
 40
0.0833
  1
57723
 50
0
999
Geneva
  0
TEXT
  8
LAYER1
 62
     7
 10
1.0721
 20
1.2928
 30
0
 40
0.0833
  1
57724
 50
0
999
Geneva
  0
TEXT
  8
LAYER1
 62
     7
 10
1.0721
 20
3.5845
 30
0
 40
0.0833
  1
57725
 50
0
999
Geneva
  0
TEXT
  8
LAYER1
 62
     7
 10
2.8776
 20
1.2928
 30
0
 40
0.0833
  1
57726
 50
0
999
Geneva
  0
TEXT
  8
LAYER1
 62
     7
 10
2.8776
 20
3.5845
 30
0
 40
0.0833
  1
57727
 50
0
999
Geneva
  0
TEXT
  8
LAYER1
 62
     7
 10
4.7665
 20
1.2928
 30
0
 40
0.0833
  1
57728
 50
0
999
Geneva
  0
TEXT
  8
LAYER1
 62
     7
 10
4.7665
 20
3.5845
 30
0
 40
0.0833
  1
57729
 50
0
999
Geneva
  0
TEXT
  8
LAYER1
 62
     7
 10
17.2665
 20
5.6817
 30
0
 40
0.0833
  1
57742
 50
0
999
Geneva
  0
TEXT
  8
LAYER1
 62
     7
 10
17.2665
 20
9.9873
 30
0
 40
0.0833
  1
57743
 50
0
999
Geneva
  0
TEXT
  8
LAYER1
 62
     7
 10
17.2665
 20
0.5845
 30
0
 40
0.0833
  1
57744
 50
0
999
Geneva
  0
TEXT
  8
LAYER1
 62
     7
 10
17.2665
 20
4.9873
 30
0
 40
0.0833
  1
57745
 50
0
999
Geneva
  0
TEXT
  8
LAYER1
 62
     7
 10
9.2248
 20
8.154
 30
0
 40
0.0833
  1
57730
 50
0
999
Geneva
  0
TEXT
  8
LAYER1
 62
     7
 10
9.2387
 20
10.2095
 30
0
 40
0.0833
  1
57731
 50
0
999
Geneva
  0
TEXT
  8
LAYER1
 62
     7
 10
11.3221
 20
8.1678
 30
0
 40
0.0833
  1
57732
 50
0
999
Geneva
  0
TEXT
  8
LAYER1
 62
     7
 10
11.3498
 20
10.1956
 30
0
 40
0.0833
  1
57733
 50
0
999
Geneva
  0
TEXT
  8
LAYER1
 62
     7
 10
13.4332
 20
8.154
 30
0
 40
0.0833
  1
57734
 50
0
999
Geneva
  0
TEXT
  8
LAYER1
 62
     7
 10
13.4054
 20
10.2512
 30
0
 40
0.0833
  1
57735
 50
0
999
Geneva
  0
TEXT
  8
LAYER1
 62
     7
 10
9.8915
 20
4.654
 30
0
 40
0.0833
  1
57736
 50
0
999
Geneva
  0
TEXT
  8
LAYER1
 62
     7
 10
9.9193
 20
7.3762
 30
0
 40
0.0833
  1
57737
 50
0
999
Geneva
  0
TEXT
  8
LAYER1
 62
     7
 10
12.7665
 20
4.5984
 30
0
 40
0.0833
  1
57738
 50
0
999
Geneva
  0
TEXT
  8
LAYER1
 62
     7
 10
12.7387
 20
7.3345
 30
0
 40
0.0833
  1
57739
 50
0
999
Geneva
  0
TEXT
  8
LAYER1
 62
     7
 10
11.3776
 20
0.7373
 30
0
 40
0.0833
  1
57740
 50
0
999
Geneva
  0
TEXT
  8
LAYER1
 62
     7
 10
11.4887
 20
3.904
 30
0
 40
0.0833
  1
57741
 50
0
999
Geneva
  0
TEXT
  8
LAYER1
 62
     7
 10
25.9609
 20
9.6262
 30
0
 40
0.0833
  1
57747
 50
0
999
Geneva
  0
TEXT
  8
LAYER1
 62
     7
 10
25.9332
 20
6.0984
 30
0
 40
0.0833
  1
57746
 50
0
999
Geneva
  0
TEXT
  8
LAYER1
 62
     7
 10
26.0304
 20
5.4317
 30
0
 40
0.0833
  1
57749
 50
0
999
Geneva
  0
TEXT
  8
LAYER1
 62
     7
 10
25.9609
 20
1.529
 30
0
 40
0.0833
  1
57748
 50
0
999
Geneva
  0
TEXT
  8
LAYER1
 62
     7
 10
6.3359
 20
10.1401
 30
0
 40
0.0833
  1
(e)
 50
0
999
Geneva
  0
TEXT
  8
LAYER1
 62
     7
 10
6.3359
 20
9.5845
 30
0
 40
0.0833
  1
(p)
 50
0
999
Geneva
  0
TEXT
  8
LAYER1
 62
     7
 10
8.1415
 20
10.0151
 30
0
 40
0.0833
  1
(e)
 50
0
999
Geneva
  0
TEXT
  8
LAYER1
 62
     7
 10
8.1415
 20
9.0984
 30
0
 40
0.0833
  1
(p)
 50
0
999
Geneva
  0
TEXT
  8
LAYER1
 62
     7
 10
19.9471
 20
9.7234
 30
0
 40
0.0833
  1
(e)
 50
0
999
Geneva
  0
TEXT
  8
LAYER1
 62
     7
 10
19.9887
 20
7.7512
 30
0
 40
0.0833
  1
(p)
 50
0
999
Geneva
  0
TEXT
  8
LAYER1
 62
     7
 10
23.8498
 20
9.3762
 30
0
 40
0.0833
  1
(e)
 50
0
999
Geneva
  0
TEXT
  8
LAYER1
 62
     7
 10
23.8498
 20
7.8762
 30
0
 40
0.0833
  1
(p)
 50
0
999
Geneva
  0
ENDBLK
  8
LAYER1
  0
ENDSEC
  0
SECTION
  2
ENTITIES
  0
INSERT
  8
LAYER1
  2
Group29
 10
0
 20
0
 30
0
  0
ENDSEC
  0
EOF
